Несколько примеров для развития техники левой и правой руки (попеременный штрих)

Сегодня Роман Мирошниченко специально для нас раскроет несколько своих секретов.

 

1. Табулатура для Ex#1 (mp3) и Ex#2 (mp3) (отрывок из композиции "Dedication" (mp3), Р.Мирошниченко)

                          Gm7
----------------10-11-10-13-11-10-------------------------------------
---10-11-13---------------------------13-11-10------------------------
----------------------------------------------------------------------
----------------------------------------------------------------------
----------------------------------------------------------------------
----------------------------------------------------------------------

                          Fm7
-------------8-9-8-11-9-8---------------------------------------------
---8-9-11-------------------11-9-8------------------------------------
----------------------------------------------------------------------
----------------------------------------------------------------------
----------------------------------------------------------------------
----------------------------------------------------------------------

                          Ebm7
-----------6-7-6-9-7-6------------------------------------------------
---6-7-9-----------------9-7-6----------------------------------------
----------------------------------------------------------------------
----------------------------------------------------------------------
----------------------------------------------------------------------
----------------------------------------------------------------------

                          Dm7
-----------5-6-5-8-6-5------------------------------------------------
---5-6-8-----------------8-6-5----------------------------------------
----------------------------------------------------------------------
----------------------------------------------------------------------
----------------------------------------------------------------------
----------------------------------------------------------------------
 
                         Am7
----------------------------------------------------------------------
----------------------------------------------------------------------
----7-5-7-9-----------------------------------------------------------
---------------7-5-7--------------------------------------------------
----------------------------------------------------------------------
----------------------------------------------------------------------

2. Табулатура для Ex#3 (mp3) Этот пример также является примером как можно разнообразить в аккомпанементе простую гармоническую последовательность A-H-C#m аккордами нестандартной аппликатуры с использованием широких интервалов и открытых струн. Попробуйте сами найти аппликатуры аккордов. Подсказка: левая рука вдоль грифа не движется, 1-й палец неповижен на 6-м ладу 3-ей струны, остальные пальцы меняют положение с каждым новым аккордом.

    A                     H                       C#m

-----0-------------------------------0------------------0-------------
-------------7-------------------7------------------7-----------------
-----------------6-----------6------------------6---------------------
---------7----------7-----9------------------9------------------------
--0-------------------------------------------------------------------
------------------------7------------------9--------------------------

3. Табулатура для Ex#4 (mp3)

                               A
-----------------------------------------------------------------------------------------
-----------------------------------------------------------------------------------------
--------6----------6--------6--------6----------6--------6--------6-------6--------------
-----7----7-----7---7---7---7---7----7----7---7----7---7---7---7--7----7-----------------
--0----------4---------5--------6---------7---------6--------5-------4---------0---------
-----------------------------------------------------------------------------------------

(!) все примеры играются попеременным штрихом

Автор: Роман Мирошниченко
Официальный сайт, Страница на MySpace, Обсуждение урока на форуме

Об авторе

Обладатель "Гран-При" международного джазового конкурса-фестиваля "DoDж 2004", Лауреат международных джазовых фестивалей и конкурсов. Неоднократно выступал со звездами мирового джаза: Al DI MEOLA, Дживаном Гаспаряном, Frank Colon, Joao Donato, Saskia Laroo, Ritchie Cole, Milcho Leviev, "Sexto Sentido", Леонидом Винцкевичем, Игорем Брилем, Алексеем Зубовым, братьями Бриль.

Роман является основателем и лидером RomanMiroshnichenkoProject. Этот проект с большим успехом выступает во многих городах стран СНГи Европы. Сегодня Роман специально для нас раскроет несколько своих секретов.