Урок Номер Три

Роман Мирошниченко представляет очередной урок, который соблюдает традиции предыдущих уроков: четыре примера очень полезных упражнений для начинающих гитаристов. Вполне возможно, что эти примеры заинтересуют и продвинутых гитаристов!

Fig 1. Пример нестандартных аппликатур, растяжка, попеременный штрих. (скачать mp3)

                          C11
----------------------------------------------------------------------
----------------------------------------------------------------------
---------5------------------5-----------------------------------------
-------------5-----------5-----5--------------------------------------
----------------4-----4-----------4-----------------------------------
-------------------8-----------------8--------------------------------

                          D7/9
----------------------------------------------------------------------
-------------1---------------2----------------------------------------
----------2----2----------2-------------------------------------------
-------4----------4----4----------------------------------------------
----5----------------5------------------------------------------------
----------------------------------------------------------------------

                          Hо
----------------------------------------------------------------------
----------------------------6-----------------------------------------
----------------7--------------------7--------------------------------
------------6------6--------------------6-----------------------------
-------10------------10-------10----------10--------------------------
---7-----------------------------------------------7------------------

Fig 2. ПШ, развитие левой руки. (скачать mp3)

                          

---13--12--10--13--12--10--12--10---------------------------------------------
------------------------------------------------12--10--9--12--10--9--10--9---
------------------------------------------------------------------------------
------------------------------------------------------------------------------
------------------------------------------------------------------------------
------------------------------------------------------------------------------

------------------------------------------------------------------------------
------------------------------------------------------------------------------
-----10--9--7--10--9--7--9--7-------------------------------------------------
---------------------------------------9--7--6---9--7--6--7-6-----------------
---------------------------------------------------------------------7--------
------------------------------------------------------------------------------
 

Fig 3. ПШ (скачать mp3)

    Bb                          С                     В                 С

---------------------------------------------------------------------------------
---------3--4--3-------------5--6--5------------7--8--7-----------5--6--5--------
------3------------3------5-------------5-----7------------7-----5------------5--
--3--------------------5---------------------7------------------5----------------
---------------------------------------------------------------------------------
---------------------------------------------------------------------------------
 

Fig 4. Развитие правой руки, растяжка левой, нестандартные аппликатуры (штрихи медиатора : п п п п п п v п v п v п) (скачать mp3)

                   Em7                                          Am11             

-------------------0-------------------------------------3-----------------------
----------------3-----3--------3----------------------3-----3---------3----------
------------0------------0--------0----------------5------------5---------5------
--------4-------------------4--------4---------3--------------------3---------3--
----2----------------------------------------7-----------------------------------
-0-----------------------------------------5-------------------------------------




                  C+9                                        H7+5

------------------0--------------------------------------0---------------------
---------------4----4---------4-----------------------4----4---------4---------
-----------0------------0---------0----------------0-----------0---------0-----
-------5--------------------5---------5---------7------------------7---------7-
----7-----------------------------------------6--------------------------------
--8----------------------------------------7-----------------------------------

Автор: Роман Мирошниченко
Официальный сайт, Страница на MySpace

Для тех кто интересуется творчеством Романа, мы рады сообщить что в декабре прошлого года состоялся релиз DVD "Live in Jazz Town" - видеосъемки шестью телекамерами, монтажа с использованием цифровых эффектов и настоящим "живым" звуком. Диск включает в себя 5 авторских композиций Романа Мирошниченко, исполненных во время выступлений RMProject в московском клубе "Jazz Town" в августе и сентябре 2007 года. Также, в DVD включены бонус треки: RomanMiroshnichenkoTrio, Roman MiroshnichenkoProject со струнным квартетом и слайд-шоу. Приобрести диски можно здесь.