Smoke On The Water

Материал из GuitarWiki
Перейти к: навигация, поиск

Smoke on the Water - одна из самых известных композиций группы Deep Purple из альбома "Machine Head" (1972). Ее основной риф очень популярен среди гитаристов:

e||------------------------|----------------------|
B||------------------------|----------------------|
G||*--0----3----5----x--0--|----3----6--5----x----|
D||*--0----3----5-------0--|----3----6--5---------|
A||------------------------|----------------------|
E||------------------------|----------------------|

   |-----------------------|---------------------||
   |-----------------------|---------------------||
   |--0----3----5----x--3--|----0----------x----*||
   |--0----3----5-------3--|----0---------------*||
   |-----------------------|---------------------||
   |-----------------------|---------------------||
Знаменитый рифф из композиции «Smoke On The Water» хард-рок-группы Deep Purple